ISO-10303-21;
HEADER;
FILE_DESCRIPTION (( 'STEP AP203' ),
    '1' );
FILE_NAME ('Q-AZHWP-20-532-M.STEP',
    '2020-12-22T09:08:39',
    ( '' ),
    ( '' ),
    'SwSTEP 2.0',
    'SolidWorks 2020',
    '' );
FILE_SCHEMA (( 'CONFIG_CONTROL_DESIGN' ));
ENDSEC;

DATA;
#1 = COORDINATED_UNIVERSAL_TIME_OFFSET ( 8, 0, .AHEAD. ) ;
#2 = DIRECTION ( 'NONE',  ( -1.000000000000000000, -0.000000000000000000, -0.000000000000000000 ) ) ;
#3 = AXIS2_PLACEMENT_3D ( 'NONE', #45, #272, #198 ) ;
#4 = CALENDAR_DATE ( 2020, 22, 12 ) ;
#5 = ORIENTED_EDGE ( 'NONE', *, *, #154, .F. ) ;
#6 = CYLINDRICAL_SURFACE ( 'NONE', #200, 10.00000000000000000 ) ;
#7 = DATE_AND_TIME ( #105, #280 ) ;
#8 = ORIENTED_EDGE ( 'NONE', *, *, #308, .T. ) ;
#9 = PERSON_AND_ORGANIZATION ( #276, #289 ) ;
#10 = EDGE_LOOP ( 'NONE', ( #250, #299 ) ) ;
#11 = CARTESIAN_POINT ( 'NONE',  ( -2.500000000000000444, 0.000000000000000000, 0.000000000000000000 ) ) ;
#12 = ORIENTED_EDGE ( 'NONE', *, *, #285, .T. ) ;
#13 = MECHANICAL_CONTEXT ( 'NONE', #117, 'mechanical' ) ;
#14 = CARTESIAN_POINT ( 'NONE',  ( 3.000000000000000000, 1.555301434917138433E-15, -12.69999999999999929 ) ) ;
#15 = VERTEX_POINT ( 'NONE', #37 ) ;
#16 = CARTESIAN_POINT ( 'NONE',  ( -1.614212418857619014, 0.000000000000000000, 0.000000000000000000 ) ) ;
#17 = ORIENTED_EDGE ( 'NONE', *, *, #328, .F. ) ;
#18 = AXIS2_PLACEMENT_3D ( 'NONE', #201, #27, #262 ) ;
#19 = CARTESIAN_POINT ( 'NONE',  ( -1.614212418857619014, 0.000000000000000000, 0.000000000000000000 ) ) ;
#20 = VERTEX_POINT ( 'NONE', #70 ) ;
#21 = CC_DESIGN_DATE_AND_TIME_ASSIGNMENT ( #333, #182, ( #329 ) ) ;
#22 = APPROVAL ( #28, 'UNSPECIFIED' ) ;
#23 = AXIS2_PLACEMENT_3D ( 'NONE', #61, #228, #177 ) ;
#24 = CARTESIAN_POINT ( 'NONE',  ( 2.500000000000000444, 10.00000000000000000, 0.000000000000000000 ) ) ;
#25 = CARTESIAN_POINT ( 'NONE',  ( 2.999999999999999112, 1.224646799147353256E-15, -10.00000000000000000 ) ) ;
#26 = VECTOR ( 'NONE', #95, 1000.000000000000000 ) ;
#27 = DIRECTION ( 'NONE',  ( 1.000000000000000000, 0.000000000000000000, 0.000000000000000000 ) ) ;
#28 = APPROVAL_STATUS ( 'not_yet_approved' ) ;
#29 =( NAMED_UNIT ( * ) SI_UNIT ( $, .STERADIAN. ) SOLID_ANGLE_UNIT ( ) );
#30 = APPROVAL_DATE_TIME ( #156, #284 ) ;
#31 = PERSON_AND_ORGANIZATION_ROLE ( 'creator' ) ;
#32 = ORIENTED_EDGE ( 'NONE', *, *, #169, .T. ) ;
#33 = DIRECTION ( 'NONE',  ( 1.000000000000000000, 0.000000000000000000, 0.000000000000000000 ) ) ;
#34 = DIRECTION ( 'NONE',  ( 0.000000000000000000, 0.000000000000000000, -1.000000000000000000 ) ) ;
#35 = VERTEX_POINT ( 'NONE', #248 ) ;
#36 = CARTESIAN_POINT ( 'NONE',  ( -1.614212418857619014, 0.000000000000000000, 0.000000000000000000 ) ) ;
#37 = CARTESIAN_POINT ( 'NONE',  ( 2.500000000000000888, 1.224646799147353256E-15, -10.00000000000000000 ) ) ;
#38 = CC_DESIGN_PERSON_AND_ORGANIZATION_ASSIGNMENT ( #58, #316, ( #190 ) ) ;
#39 = ADVANCED_FACE ( 'NONE', ( #320 ), #165, .F. ) ;
#40 = FACE_BOUND ( 'NONE', #265, .T. ) ;
#41 = CYLINDRICAL_SURFACE ( 'NONE', #222, 12.69999999999999929 ) ;
#42 = CC_DESIGN_APPROVAL ( #92, ( #190 ) ) ;
#43 = CYLINDRICAL_SURFACE ( 'NONE', #172, 10.00000000000000000 ) ;
#44 = DIRECTION ( 'NONE',  ( -1.000000000000000000, -0.000000000000000000, -0.000000000000000000 ) ) ;
#45 = CARTESIAN_POINT ( 'NONE',  ( 2.500000000000000888, 0.000000000000000000, 0.000000000000000000 ) ) ;
#46 = MANIFOLD_SOLID_BREP ( 'Ðý×', #203 ) ;
#47 = ADVANCED_FACE ( 'NONE', ( #321 ), #41, .T. ) ;
#48 = LOCAL_TIME ( 17, 8, 39.00000000000000000, #1 ) ;
#49 = FACE_OUTER_BOUND ( 'NONE', #136, .T. ) ;
#50 = EDGE_LOOP ( 'NONE', ( #129, #294, #229, #127 ) ) ;
#51 = DIRECTION ( 'NONE',  ( 0.000000000000000000, 0.000000000000000000, 1.000000000000000000 ) ) ;
#52 = DIRECTION ( 'NONE',  ( -1.000000000000000000, -0.000000000000000000, -0.000000000000000000 ) ) ;
#53 = ADVANCED_FACE ( 'NONE', ( #112 ), #131, .F. ) ;
#54 = CARTESIAN_POINT ( 'NONE',  ( -1.614212418857619014, 1.224646799147353256E-15, -10.00000000000000000 ) ) ;
#55 = PERSON_AND_ORGANIZATION_ROLE ( 'classification_officer' ) ;
#56 = DIRECTION ( 'NONE',  ( 0.000000000000000000, 0.000000000000000000, 1.000000000000000000 ) ) ;
#57 = AXIS2_PLACEMENT_3D ( 'NONE', #161, #110, #327 ) ;
#58 = PERSON_AND_ORGANIZATION ( #276, #289 ) ;
#59 = ADVANCED_FACE ( 'NONE', ( #137 ), #214, .F. ) ;
#60 = VERTEX_POINT ( 'NONE', #162 ) ;
#61 = CARTESIAN_POINT ( 'NONE',  ( 3.000000000000000000, 0.000000000000000000, 0.000000000000000000 ) ) ;
#62 = CIRCLE ( 'NONE', #115, 12.69999999999999929 ) ;
#63 = VERTEX_POINT ( 'NONE', #187 ) ;
#64 = DIRECTION ( 'NONE',  ( -1.000000000000000000, -0.000000000000000000, -0.000000000000000000 ) ) ;
#65 = DIRECTION ( 'NONE',  ( 0.000000000000000000, 0.000000000000000000, -1.000000000000000000 ) ) ;
#66 = ORIENTED_EDGE ( 'NONE', *, *, #149, .F. ) ;
#67 = VECTOR ( 'NONE', #2, 1000.000000000000000 ) ;
#68 = CC_DESIGN_DATE_AND_TIME_ASSIGNMENT ( #7, #318, ( #170 ) ) ;
#69 = DIRECTION ( 'NONE',  ( -1.000000000000000000, -0.000000000000000000, -0.000000000000000000 ) ) ;
#70 = CARTESIAN_POINT ( 'NONE',  ( -3.000000000000000000, 0.000000000000000000, 12.69999999999999929 ) ) ;
#71 = EDGE_LOOP ( 'NONE', ( #245, #12, #322, #141 ) ) ;
#72 = CC_DESIGN_PERSON_AND_ORGANIZATION_ASSIGNMENT ( #123, #55, ( #329 ) ) ;
#73 = CARTESIAN_POINT ( 'NONE',  ( 3.000000000000000000, 0.000000000000000000, 0.000000000000000000 ) ) ;
#74 = FACE_OUTER_BOUND ( 'NONE', #111, .T. ) ;
#75 = AXIS2_PLACEMENT_3D ( 'NONE', #192, #108, #89 ) ;
#76 = DIRECTION ( 'NONE',  ( -1.000000000000000000, -0.000000000000000000, -0.000000000000000000 ) ) ;
#77 = AXIS2_PLACEMENT_3D ( 'NONE', #277, #44, #251 ) ;
#78 = ORIENTED_EDGE ( 'NONE', *, *, #173, .T. ) ;
#79 = VERTEX_POINT ( 'NONE', #242 ) ;
#80 = CC_DESIGN_PERSON_AND_ORGANIZATION_ASSIGNMENT ( #264, #313, ( #305 ) ) ;
#81 = DIRECTION ( 'NONE',  ( -1.000000000000000000, -0.000000000000000000, -0.000000000000000000 ) ) ;
#82 = COORDINATED_UNIVERSAL_TIME_OFFSET ( 8, 0, .AHEAD. ) ;
#83 = CC_DESIGN_PERSON_AND_ORGANIZATION_ASSIGNMENT ( #231, #85, ( #190 ) ) ;
#84 = ADVANCED_BREP_SHAPE_REPRESENTATION ( 'Q-AZHWP-20-532-M', ( #46, #102 ), #256 ) ;
#85 = PERSON_AND_ORGANIZATION_ROLE ( 'design_supplier' ) ;
#86 = ORIENTED_EDGE ( 'NONE', *, *, #326, .F. ) ;
#87 = VERTEX_POINT ( 'NONE', #191 ) ;
#88 = DIRECTION ( 'NONE',  ( 0.000000000000000000, 0.000000000000000000, 1.000000000000000000 ) ) ;
#89 = DIRECTION ( 'NONE',  ( -0.000000000000000000, 0.000000000000000000, 1.000000000000000000 ) ) ;
#90 = VERTEX_POINT ( 'NONE', #14 ) ;
#91 = CARTESIAN_POINT ( 'NONE',  ( -2.500000000000000444, 10.00000000000000000, 0.000000000000000000 ) ) ;
#92 = APPROVAL ( #286, 'UNSPECIFIED' ) ;
#93 = VECTOR ( 'NONE', #309, 1000.000000000000000 ) ;
#94 = EDGE_CURVE ( 'NONE', #87, #237, #292, .T. ) ;
#95 = DIRECTION ( 'NONE',  ( -1.000000000000000000, -0.000000000000000000, -0.000000000000000000 ) ) ;
#96 = EDGE_CURVE ( 'NONE', #237, #218, #167, .T. ) ;
#97 = AXIS2_PLACEMENT_3D ( 'NONE', #140, #76, #225 ) ;
#98 = CARTESIAN_POINT ( 'NONE',  ( -3.000000000000000444, 1.224646799147353256E-15, -10.00000000000000000 ) ) ;
#99 = APPROVAL_PERSON_ORGANIZATION ( #155, #92, #293 ) ;
#100 = EDGE_CURVE ( 'NONE', #87, #197, #217, .T. ) ;
#101 = PERSON_AND_ORGANIZATION ( #276, #289 ) ;
#102 = AXIS2_PLACEMENT_3D ( 'NONE', #283, #56, #33 ) ;
#103 = CARTESIAN_POINT ( 'NONE',  ( -1.614212418857619014, 0.000000000000000000, 10.00000000000000000 ) ) ;
#104 = ORIENTED_EDGE ( 'NONE', *, *, #159, .T. ) ;
#105 = CALENDAR_DATE ( 2020, 22, 12 ) ;
#106 = EDGE_LOOP ( 'NONE', ( #303, #86 ) ) ;
#107 = AXIS2_PLACEMENT_3D ( 'NONE', #220, #226, #331 ) ;
#108 = DIRECTION ( 'NONE',  ( -1.000000000000000000, 0.000000000000000000, -0.000000000000000000 ) ) ;
#109 = ORIENTED_EDGE ( 'NONE', *, *, #204, .F. ) ;
#110 = DIRECTION ( 'NONE',  ( -1.000000000000000000, -0.000000000000000000, -0.000000000000000000 ) ) ;
#111 = EDGE_LOOP ( 'NONE', ( #5, #109 ) ) ;
#112 = FACE_OUTER_BOUND ( 'NONE', #174, .T. ) ;
#113 = CIRCLE ( 'NONE', #304, 10.00000000000000000 ) ;
#114 = CARTESIAN_POINT ( 'NONE',  ( -1.614212418857619014, 0.000000000000000000, 10.00000000000000000 ) ) ;
#115 = AXIS2_PLACEMENT_3D ( 'NONE', #73, #330, #51 ) ;
#116 = DIRECTION ( 'NONE',  ( -1.000000000000000000, -0.000000000000000000, -0.000000000000000000 ) ) ;
#117 = APPLICATION_CONTEXT ( 'configuration controlled 3d designs of mechanical parts and assemblies' ) ;
#118 = ORIENTED_EDGE ( 'NONE', *, *, #159, .F. ) ;
#119 = PLANE ( 'NONE',  #147 ) ;
#120 = PLANE ( 'NONE',  #107 ) ;
#121 = AXIS2_PLACEMENT_3D ( 'NONE', #181, #278, #208 ) ;
#122 = DIRECTION ( 'NONE',  ( 0.000000000000000000, 0.000000000000000000, 1.000000000000000000 ) ) ;
#123 = PERSON_AND_ORGANIZATION ( #276, #289 ) ;
#124 = SHAPE_DEFINITION_REPRESENTATION ( #144, #84 ) ;
#125 = CARTESIAN_POINT ( 'NONE',  ( -1.614212418857619014, 0.000000000000000000, 12.69999999999999929 ) ) ;
#126 = APPROVAL_STATUS ( 'not_yet_approved' ) ;
#127 = ORIENTED_EDGE ( 'NONE', *, *, #96, .T. ) ;
#128 = CARTESIAN_POINT ( 'NONE',  ( -1.614212418857619014, 1.224646799147353256E-15, -10.00000000000000000 ) ) ;
#129 = ORIENTED_EDGE ( 'NONE', *, *, #308, .F. ) ;
#130 = CALENDAR_DATE ( 2020, 22, 12 ) ;
#131 = CYLINDRICAL_SURFACE ( 'NONE', #296, 10.00000000000000000 ) ;
#132 = ORIENTED_EDGE ( 'NONE', *, *, #96, .F. ) ;
#133 = LOCAL_TIME ( 17, 8, 39.00000000000000000, #82 ) ;
#134 = DIRECTION ( 'NONE',  ( -1.000000000000000000, -0.000000000000000000, -0.000000000000000000 ) ) ;
#135 = ADVANCED_FACE ( 'NONE', ( #269, #40 ), #138, .F. ) ;
#136 = EDGE_LOOP ( 'NONE', ( #271, #32 ) ) ;
#137 = FACE_OUTER_BOUND ( 'NONE', #106, .T. ) ;
#138 = PLANE ( 'NONE',  #75 ) ;
#139 = CIRCLE ( 'NONE', #121, 12.69999999999999929 ) ;
#140 = CARTESIAN_POINT ( 'NONE',  ( 2.500000000000000888, 0.000000000000000000, 0.000000000000000000 ) ) ;
#141 = ORIENTED_EDGE ( 'NONE', *, *, #169, .F. ) ;
#142 = CARTESIAN_POINT ( 'NONE',  ( 2.999999999999999112, 0.000000000000000000, 0.000000000000000000 ) ) ;
#143 = VECTOR ( 'NONE', #69, 1000.000000000000000 ) ;
#144 = PRODUCT_DEFINITION_SHAPE ( 'NONE', 'NONE',  #170 ) ;
#145 = FACE_OUTER_BOUND ( 'NONE', #50, .T. ) ;
#146 = PRODUCT_RELATED_PRODUCT_CATEGORY ( 'detail', '', ( #305 ) ) ;
#147 = AXIS2_PLACEMENT_3D ( 'NONE', #24, #175, #302 ) ;
#148 = FACE_OUTER_BOUND ( 'NONE', #291, .T. ) ;
#149 = EDGE_CURVE ( 'NONE', #186, #60, #113, .T. ) ;
#150 = CC_DESIGN_APPROVAL ( #22, ( #170 ) ) ;
#151 = DATE_AND_TIME ( #130, #240 ) ;
#152 = COORDINATED_UNIVERSAL_TIME_OFFSET ( 8, 0, .AHEAD. ) ;
#153 = DIRECTION ( 'NONE',  ( -1.000000000000000000, -0.000000000000000000, -0.000000000000000000 ) ) ;
#154 = EDGE_CURVE ( 'NONE', #35, #15, #246, .T. ) ;
#155 = PERSON_AND_ORGANIZATION ( #276, #289 ) ;
#156 = DATE_AND_TIME ( #4, #234 ) ;
#157 = ORIENTED_EDGE ( 'NONE', *, *, #324, .F. ) ;
#158 = LINE ( 'NONE', #125, #312 ) ;
#159 = EDGE_CURVE ( 'NONE', #60, #186, #287, .T. ) ;
#160 = ADVANCED_FACE ( 'NONE', ( #145 ), #43, .F. ) ;
#161 = CARTESIAN_POINT ( 'NONE',  ( -3.000000000000000444, 0.000000000000000000, 0.000000000000000000 ) ) ;
#162 = CARTESIAN_POINT ( 'NONE',  ( 2.999999999999999112, 0.000000000000000000, 10.00000000000000000 ) ) ;
#163 = CIRCLE ( 'NONE', #3, 10.00000000000000000 ) ;
#164 = ADVANCED_FACE ( 'NONE', ( #74 ), #119, .F. ) ;
#165 = CYLINDRICAL_SURFACE ( 'NONE', #260, 10.00000000000000000 ) ;
#166 = DIRECTION ( 'NONE',  ( -1.000000000000000000, -0.000000000000000000, -0.000000000000000000 ) ) ;
#167 = CIRCLE ( 'NONE', #57, 10.00000000000000000 ) ;
#168 = LINE ( 'NONE', #171, #26 ) ;
#169 = EDGE_CURVE ( 'NONE', #63, #20, #274, .T. ) ;
#170 = PRODUCT_DEFINITION ( 'UNKNOWN', '', #190, #325 ) ;
#171 = CARTESIAN_POINT ( 'NONE',  ( -1.614212418857619014, 1.555301434917138433E-15, -12.69999999999999929 ) ) ;
#172 = AXIS2_PLACEMENT_3D ( 'NONE', #19, #306, #221 ) ;
#173 = EDGE_CURVE ( 'NONE', #79, #90, #62, .T. ) ;
#174 = EDGE_LOOP ( 'NONE', ( #66, #334, #244, #263 ) ) ;
#175 = DIRECTION ( 'NONE',  ( -1.000000000000000000, 0.000000000000000000, -0.000000000000000000 ) ) ;
#176 = LINE ( 'NONE', #103, #219 ) ;
#177 = DIRECTION ( 'NONE',  ( 0.000000000000000000, 0.000000000000000000, 1.000000000000000000 ) ) ;
#178 = CC_DESIGN_APPROVAL ( #284, ( #329 ) ) ;
#179 = APPLICATION_PROTOCOL_DEFINITION ( 'international standard', 'config_control_design', 1994, #117 ) ;
#180 = AXIS2_PLACEMENT_3D ( 'NONE', #142, #253, #249 ) ;
#181 = CARTESIAN_POINT ( 'NONE',  ( -3.000000000000000000, 0.000000000000000000, 0.000000000000000000 ) ) ;
#182 = DATE_TIME_ROLE ( 'classification_date' ) ;
#183 = CIRCLE ( 'NONE', #23, 12.69999999999999929 ) ;
#184 = DIRECTION ( 'NONE',  ( 1.000000000000000000, 0.000000000000000000, 0.000000000000000000 ) ) ;
#185 = APPROVAL_DATE_TIME ( #151, #22 ) ;
#186 = VERTEX_POINT ( 'NONE', #25 ) ;
#187 = CARTESIAN_POINT ( 'NONE',  ( -3.000000000000000000, 1.555301434917138433E-15, -12.69999999999999929 ) ) ;
#188 = AXIS2_PLACEMENT_3D ( 'NONE', #11, #266, #34 ) ;
#189 = ORIENTED_EDGE ( 'NONE', *, *, #94, .F. ) ;
#190 = PRODUCT_DEFINITION_FORMATION_WITH_SPECIFIED_SOURCE ( 'ANY', '', #305, .NOT_KNOWN. ) ;
#191 = CARTESIAN_POINT ( 'NONE',  ( -2.500000000000000444, 0.000000000000000000, 10.00000000000000000 ) ) ;
#192 = CARTESIAN_POINT ( 'NONE',  ( 2.999999999999999112, 12.69999999999999929, 0.000000000000000000 ) ) ;
#193 = DIRECTION ( 'NONE',  ( 0.000000000000000000, 0.000000000000000000, 1.000000000000000000 ) ) ;
#194 = ADVANCED_FACE ( 'NONE', ( #148 ), #300, .T. ) ;
#195 = CIRCLE ( 'NONE', #301, 10.00000000000000000 ) ;
#196 = DIRECTION ( 'NONE',  ( -1.000000000000000000, -0.000000000000000000, -0.000000000000000000 ) ) ;
#197 = VERTEX_POINT ( 'NONE', #254 ) ;
#198 = DIRECTION ( 'NONE',  ( 0.000000000000000000, 0.000000000000000000, 1.000000000000000000 ) ) ;
#199 = EDGE_CURVE ( 'NONE', #90, #63, #168, .T. ) ;
#200 = AXIS2_PLACEMENT_3D ( 'NONE', #205, #153, #122 ) ;
#201 = CARTESIAN_POINT ( 'NONE',  ( -2.500000000000000444, 0.000000000000000000, 0.000000000000000000 ) ) ;
#202 = COORDINATED_UNIVERSAL_TIME_OFFSET ( 8, 0, .AHEAD. ) ;
#203 = CLOSED_SHELL ( 'NONE', ( #194, #39, #53, #164, #268, #160, #216, #47, #135, #59 ) ) ;
#204 = EDGE_CURVE ( 'NONE', #15, #35, #163, .T. ) ;
#205 = CARTESIAN_POINT ( 'NONE',  ( -1.614212418857619014, 0.000000000000000000, 0.000000000000000000 ) ) ;
#206 = APPROVAL_ROLE ( '' ) ;
#207 =( NAMED_UNIT ( * ) PLANE_ANGLE_UNIT ( ) SI_UNIT ( $, .RADIAN. ) );
#208 = DIRECTION ( 'NONE',  ( 0.000000000000000000, 0.000000000000000000, 1.000000000000000000 ) ) ;
#209 = DATE_AND_TIME ( #257, #48 ) ;
#210 = EDGE_LOOP ( 'NONE', ( #132, #223 ) ) ;
#211 = ORIENTED_EDGE ( 'NONE', *, *, #199, .T. ) ;
#212 = CIRCLE ( 'NONE', #18, 10.00000000000000000 ) ;
#213 = CARTESIAN_POINT ( 'NONE',  ( 2.999999999999999112, 0.000000000000000000, 0.000000000000000000 ) ) ;
#214 = PLANE ( 'NONE',  #252 ) ;
#215 = ORIENTED_EDGE ( 'NONE', *, *, #235, .F. ) ;
#216 = ADVANCED_FACE ( 'NONE', ( #275, #49 ), #120, .F. ) ;
#217 = CIRCLE ( 'NONE', #188, 10.00000000000000000 ) ;
#218 = VERTEX_POINT ( 'NONE', #98 ) ;
#219 = VECTOR ( 'NONE', #81, 1000.000000000000000 ) ;
#220 = CARTESIAN_POINT ( 'NONE',  ( -3.000000000000000000, 10.00000000000000000, 0.000000000000000000 ) ) ;
#221 = DIRECTION ( 'NONE',  ( 0.000000000000000000, 0.000000000000000000, 1.000000000000000000 ) ) ;
#222 = AXIS2_PLACEMENT_3D ( 'NONE', #36, #134, #295 ) ;
#223 = ORIENTED_EDGE ( 'NONE', *, *, #243, .F. ) ;
#224 = APPROVAL_PERSON_ORGANIZATION ( #101, #284, #206 ) ;
#225 = DIRECTION ( 'NONE',  ( 0.000000000000000000, 0.000000000000000000, 1.000000000000000000 ) ) ;
#226 = DIRECTION ( 'NONE',  ( 1.000000000000000000, 0.000000000000000000, 0.000000000000000000 ) ) ;
#227 = CC_DESIGN_SECURITY_CLASSIFICATION ( #329, ( #190 ) ) ;
#228 = DIRECTION ( 'NONE',  ( -1.000000000000000000, -0.000000000000000000, -0.000000000000000000 ) ) ;
#229 = ORIENTED_EDGE ( 'NONE', *, *, #94, .T. ) ;
#230 = CC_DESIGN_PERSON_AND_ORGANIZATION_ASSIGNMENT ( #9, #31, ( #170 ) ) ;
#231 = PERSON_AND_ORGANIZATION ( #276, #289 ) ;
#232 = FACE_OUTER_BOUND ( 'NONE', #261, .T. ) ;
#233 = UNCERTAINTY_MEASURE_WITH_UNIT (LENGTH_MEASURE( 1.000000000000000082E-05 ), #258, 'distance_accuracy_value', 'NONE');
#234 = LOCAL_TIME ( 17, 8, 39.00000000000000000, #202 ) ;
#235 = EDGE_CURVE ( 'NONE', #186, #15, #288, .T. ) ;
#236 = COORDINATED_UNIVERSAL_TIME_OFFSET ( 8, 0, .AHEAD. ) ;
#237 = VERTEX_POINT ( 'NONE', #314 ) ;
#238 = APPLICATION_PROTOCOL_DEFINITION ( 'international standard', 'config_control_design', 1994, #241 ) ;
#239 = CARTESIAN_POINT ( 'NONE',  ( -1.614212418857619014, 0.000000000000000000, 0.000000000000000000 ) ) ;
#240 = LOCAL_TIME ( 17, 8, 39.00000000000000000, #236 ) ;
#241 = APPLICATION_CONTEXT ( 'configuration controlled 3d designs of mechanical parts and assemblies' ) ;
#242 = CARTESIAN_POINT ( 'NONE',  ( 3.000000000000000000, 0.000000000000000000, 12.69999999999999929 ) ) ;
#243 = EDGE_CURVE ( 'NONE', #218, #237, #195, .T. ) ;
#244 = ORIENTED_EDGE ( 'NONE', *, *, #204, .T. ) ;
#245 = ORIENTED_EDGE ( 'NONE', *, *, #199, .F. ) ;
#246 = CIRCLE ( 'NONE', #97, 10.00000000000000000 ) ;
#247 = DIRECTION ( 'NONE',  ( 0.000000000000000000, 0.000000000000000000, 1.000000000000000000 ) ) ;
#248 = CARTESIAN_POINT ( 'NONE',  ( 2.500000000000000888, 0.000000000000000000, 10.00000000000000000 ) ) ;
#249 = DIRECTION ( 'NONE',  ( 0.000000000000000000, 0.000000000000000000, 1.000000000000000000 ) ) ;
#250 = ORIENTED_EDGE ( 'NONE', *, *, #173, .F. ) ;
#251 = DIRECTION ( 'NONE',  ( 0.000000000000000000, 0.000000000000000000, 1.000000000000000000 ) ) ;
#252 = AXIS2_PLACEMENT_3D ( 'NONE', #91, #184, #65 ) ;
#253 = DIRECTION ( 'NONE',  ( -1.000000000000000000, -0.000000000000000000, -0.000000000000000000 ) ) ;
#254 = CARTESIAN_POINT ( 'NONE',  ( -2.500000000000000444, 1.224646799147353256E-15, -10.00000000000000000 ) ) ;
#255 = AXIS2_PLACEMENT_3D ( 'NONE', #270, #196, #273 ) ;
#256 =( GEOMETRIC_REPRESENTATION_CONTEXT ( 3 ) GLOBAL_UNCERTAINTY_ASSIGNED_CONTEXT ( ( #233 ) ) GLOBAL_UNIT_ASSIGNED_CONTEXT ( ( #258, #207, #29 ) ) REPRESENTATION_CONTEXT ( 'NONE', 'WORKASPACE' ) );
#257 = CALENDAR_DATE ( 2020, 22, 12 ) ;
#258 =( LENGTH_UNIT ( ) NAMED_UNIT ( * ) SI_UNIT ( .MILLI., .METRE. ) );
#259 = SECURITY_CLASSIFICATION_LEVEL ( 'unclassified' ) ;
#260 = AXIS2_PLACEMENT_3D ( 'NONE', #16, #64, #247 ) ;
#261 = EDGE_LOOP ( 'NONE', ( #215, #118, #323, #297 ) ) ;
#262 = DIRECTION ( 'NONE',  ( 0.000000000000000000, 0.000000000000000000, -1.000000000000000000 ) ) ;
#263 = ORIENTED_EDGE ( 'NONE', *, *, #298, .F. ) ;
#264 = PERSON_AND_ORGANIZATION ( #276, #289 ) ;
#265 = EDGE_LOOP ( 'NONE', ( #104, #267 ) ) ;
#266 = DIRECTION ( 'NONE',  ( 1.000000000000000000, 0.000000000000000000, 0.000000000000000000 ) ) ;
#267 = ORIENTED_EDGE ( 'NONE', *, *, #149, .T. ) ;
#268 = ADVANCED_FACE ( 'NONE', ( #232 ), #6, .F. ) ;
#269 = FACE_OUTER_BOUND ( 'NONE', #10, .T. ) ;
#270 = CARTESIAN_POINT ( 'NONE',  ( -1.614212418857619014, 0.000000000000000000, 0.000000000000000000 ) ) ;
#271 = ORIENTED_EDGE ( 'NONE', *, *, #324, .T. ) ;
#272 = DIRECTION ( 'NONE',  ( -1.000000000000000000, -0.000000000000000000, -0.000000000000000000 ) ) ;
#273 = DIRECTION ( 'NONE',  ( 0.000000000000000000, 0.000000000000000000, 1.000000000000000000 ) ) ;
#274 = CIRCLE ( 'NONE', #77, 12.69999999999999929 ) ;
#275 = FACE_BOUND ( 'NONE', #210, .T. ) ;
#276 = PERSON ( 'UNSPECIFIED', 'UNSPECIFIED', 'UNSPECIFIED', ('UNSPECIFIED'), ('UNSPECIFIED'), ('UNSPECIFIED') ) ;
#277 = CARTESIAN_POINT ( 'NONE',  ( -3.000000000000000000, 0.000000000000000000, 0.000000000000000000 ) ) ;
#278 = DIRECTION ( 'NONE',  ( -1.000000000000000000, -0.000000000000000000, -0.000000000000000000 ) ) ;
#279 = LINE ( 'NONE', #54, #67 ) ;
#280 = LOCAL_TIME ( 17, 8, 39.00000000000000000, #152 ) ;
#281 = APPROVAL_ROLE ( '' ) ;
#282 = CALENDAR_DATE ( 2020, 22, 12 ) ;
#283 = CARTESIAN_POINT ( 'NONE',  ( 0.000000000000000000, 0.000000000000000000, 0.000000000000000000 ) ) ;
#284 = APPROVAL ( #126, 'UNSPECIFIED' ) ;
#285 = EDGE_CURVE ( 'NONE', #90, #79, #183, .T. ) ;
#286 = APPROVAL_STATUS ( 'not_yet_approved' ) ;
#287 = CIRCLE ( 'NONE', #180, 10.00000000000000000 ) ;
#288 = LINE ( 'NONE', #128, #93 ) ;
#289 = ORGANIZATION ( 'UNSPECIFIED', 'UNSPECIFIED', '' ) ;
#290 = APPROVAL_DATE_TIME ( #209, #92 ) ;
#291 = EDGE_LOOP ( 'NONE', ( #78, #211, #157, #17 ) ) ;
#292 = LINE ( 'NONE', #114, #143 ) ;
#293 = APPROVAL_ROLE ( '' ) ;
#294 = ORIENTED_EDGE ( 'NONE', *, *, #326, .T. ) ;
#295 = DIRECTION ( 'NONE',  ( 0.000000000000000000, 0.000000000000000000, 1.000000000000000000 ) ) ;
#296 = AXIS2_PLACEMENT_3D ( 'NONE', #239, #166, #88 ) ;
#297 = ORIENTED_EDGE ( 'NONE', *, *, #154, .T. ) ;
#298 = EDGE_CURVE ( 'NONE', #60, #35, #176, .T. ) ;
#299 = ORIENTED_EDGE ( 'NONE', *, *, #285, .F. ) ;
#300 = CYLINDRICAL_SURFACE ( 'NONE', #255, 12.69999999999999929 ) ;
#301 = AXIS2_PLACEMENT_3D ( 'NONE', #307, #52, #311 ) ;
#302 = DIRECTION ( 'NONE',  ( -0.000000000000000000, 0.000000000000000000, 1.000000000000000000 ) ) ;
#303 = ORIENTED_EDGE ( 'NONE', *, *, #100, .F. ) ;
#304 = AXIS2_PLACEMENT_3D ( 'NONE', #213, #116, #193 ) ;
#305 = PRODUCT ( 'Q-AZHWP-20-532-M', 'Q-AZHWP-20-532-M', '', ( #13 ) ) ;
#306 = DIRECTION ( 'NONE',  ( -1.000000000000000000, -0.000000000000000000, -0.000000000000000000 ) ) ;
#307 = CARTESIAN_POINT ( 'NONE',  ( -3.000000000000000444, 0.000000000000000000, 0.000000000000000000 ) ) ;
#308 = EDGE_CURVE ( 'NONE', #197, #218, #279, .T. ) ;
#309 = DIRECTION ( 'NONE',  ( -1.000000000000000000, -0.000000000000000000, -0.000000000000000000 ) ) ;
#310 = PERSON_AND_ORGANIZATION ( #276, #289 ) ;
#311 = DIRECTION ( 'NONE',  ( 0.000000000000000000, 0.000000000000000000, 1.000000000000000000 ) ) ;
#312 = VECTOR ( 'NONE', #335, 1000.000000000000000 ) ;
#313 = PERSON_AND_ORGANIZATION_ROLE ( 'design_owner' ) ;
#314 = CARTESIAN_POINT ( 'NONE',  ( -3.000000000000000444, 0.000000000000000000, 10.00000000000000000 ) ) ;
#315 = EDGE_LOOP ( 'NONE', ( #319, #8, #317, #189 ) ) ;
#316 = PERSON_AND_ORGANIZATION_ROLE ( 'creator' ) ;
#317 = ORIENTED_EDGE ( 'NONE', *, *, #243, .T. ) ;
#318 = DATE_TIME_ROLE ( 'creation_date' ) ;
#319 = ORIENTED_EDGE ( 'NONE', *, *, #100, .T. ) ;
#320 = FACE_OUTER_BOUND ( 'NONE', #315, .T. ) ;
#321 = FACE_OUTER_BOUND ( 'NONE', #71, .T. ) ;
#322 = ORIENTED_EDGE ( 'NONE', *, *, #328, .T. ) ;
#323 = ORIENTED_EDGE ( 'NONE', *, *, #298, .T. ) ;
#324 = EDGE_CURVE ( 'NONE', #20, #63, #139, .T. ) ;
#325 = DESIGN_CONTEXT ( 'detailed design', #241, 'design' ) ;
#326 = EDGE_CURVE ( 'NONE', #197, #87, #212, .T. ) ;
#327 = DIRECTION ( 'NONE',  ( 0.000000000000000000, 0.000000000000000000, 1.000000000000000000 ) ) ;
#328 = EDGE_CURVE ( 'NONE', #79, #20, #158, .T. ) ;
#329 = SECURITY_CLASSIFICATION ( '', '', #259 ) ;
#330 = DIRECTION ( 'NONE',  ( -1.000000000000000000, -0.000000000000000000, -0.000000000000000000 ) ) ;
#331 = DIRECTION ( 'NONE',  ( 0.000000000000000000, 0.000000000000000000, -1.000000000000000000 ) ) ;
#332 = APPROVAL_PERSON_ORGANIZATION ( #310, #22, #281 ) ;
#333 = DATE_AND_TIME ( #282, #133 ) ;
#334 = ORIENTED_EDGE ( 'NONE', *, *, #235, .T. ) ;
#335 = DIRECTION ( 'NONE',  ( -1.000000000000000000, -0.000000000000000000, -0.000000000000000000 ) ) ;
ENDSEC;
END-ISO-10303-21;
